0
SECTION
2
HEADER
9
$INSUNITS
70
4
9
$ACADVER
1
AC1014
9
$HANDSEED
5
FFFF
0
ENDSEC
0
SECTION
2
TABLES
0
TABLE
2
VPORT
5
8
100
AcDbSymbolTable
0
ENDTAB
0
TABLE
2
LTYPE
5
5
100
AcDbSymbolTable
0
LTYPE
5
14
100
AcDbSymbolTableRecord
100
AcDbLinetypeTableRecord
2
BYBLOCK
70
0
0
LTYPE
5
15
100
AcDbSymbolTableRecord
100
AcDbLinetypeTableRecord
2
BYLAYER
70
0
0
ENDTAB
0
TABLE
2
LAYER
5
2
100
AcDbSymbolTable
70
2
0
LAYER
5
50
100
AcDbSymbolTableRecord
100
AcDbLayerTableRecord
2
0
70
0
6
CONTINUOUS
0
ENDTAB
0
TABLE
2
STYLE
5
3
100
AcDbSymbolTable
70
1
0
STYLE
5
11
100
AcDbSymbolTableRecord
100
AcDbTextStyleTableRecord
2
STANDARD
70
0
0
ENDTAB
0
TABLE
2
VIEW
5
6
100
AcDbSymbolTable
70
0
0
ENDTAB
0
TABLE
2
UCS
5
7
100
AcDbSymbolTable
70
0
0
ENDTAB
0
TABLE
2
APPID
5
9
100
AcDbSymbolTable
70
2
0
APPID
5
12
100
AcDbSymbolTableRecord
100
AcDbRegAppTableRecord
2
ACAD
70
0
0
ENDTAB
0
TABLE
2
DIMSTYLE
5
A
100
AcDbSymbolTable
70
1
0
ENDTAB
0
TABLE
2
BLOCK_RECORD
5
1
100
AcDbSymbolTable
70
1
0
BLOCK_RECORD
5
1F
100
AcDbSymbolTableRecord
100
AcDbBlockTableRecord
2
*MODEL_SPACE
0
BLOCK_RECORD
5
1B
100
AcDbSymbolTableRecord
100
AcDbBlockTableRecord
2
*PAPER_SPACE
0
ENDTAB
0
ENDSEC
0
SECTION
2
BLOCKS
0
BLOCK
5
20
100
AcDbEntity
100
AcDbBlockBegin
2
*MODEL_SPACE
0
ENDBLK
5
21
100
AcDbEntity
100
AcDbBlockEnd
0
BLOCK
5
1C
100
AcDbEntity
100
AcDbBlockBegin
2
*PAPER_SPACE
0
ENDBLK
5
1D
100
AcDbEntity
100
AcDbBlockEnd
0
ENDSEC
0
SECTION
2
ENTITIES
0
SPLINE
5
100
100
AcDbEntity
8
0
100
AcDbSpline
70
1064
71
5
72
76
73
70
74
0
42
0.000000001
43
0.0000000001
44
0.0000000001
40
0
40
0
40
0
40
0
40
0
40
0
40
0.015384615384615385
40
0.030769230769230771
40
0.046153846153846156
40
0.061538461538461542
40
0.076923076923076927
40
0.092307692307692313
40
0.1076923076923077
40
0.12307692307692308
40
0.13846153846153847
40
0.15384615384615385
40
0.16923076923076924
40
0.18461538461538463
40
0.20000000000000001
40
0.2153846153846154
40
0.23076923076923078
40
0.24615384615384617
40
0.26153846153846155
40
0.27692307692307694
40
0.29230769230769232
40
0.30769230769230771
40
0.32307692307692309
40
0.33846153846153848
40
0.35384615384615387
40
0.36923076923076925
40
0.38461538461538464
40
0.40000000000000002
40
0.41538461538461541
40
0.43076923076923079
40
0.44615384615384618
40
0.46153846153846156
40
0.47692307692307695
40
0.49230769230769234
40
0.50769230769230766
40
0.52307692307692299
40
0.53846153846153832
40
0.55384615384615365
40
0.56923076923076898
40
0.58461538461538431
40
0.59999999999999964
40
0.61538461538461497
40
0.6307692307692303
40
0.64615384615384563
40
0.66153846153846096
40
0.67692307692307629
40
0.69230769230769162
40
0.70769230769230695
40
0.72307692307692228
40
0.73846153846153761
40
0.75384615384615294
40
0.76923076923076827
40
0.7846153846153836
40
0.79999999999999893
40
0.81538461538461426
40
0.83076923076922959
40
0.84615384615384492
40
0.86153846153846025
40
0.87692307692307558
40
0.89230769230769091
40
0.90769230769230624
40
0.92307692307692157
40
0.9384615384615369
40
0.95384615384615223
40
0.96923076923076756
40
0.98461538461538289
40
1
40
1
40
1
40
1
40
1
40
1
10
-58.288358473862381
20
96.455345398858441
30
0
10
-58.231316525787932
20
96.455730612785572
30
0
10
-58.117587942089031
20
96.506731994420264
30
0
10
-57.953053884895297
20
96.744680621542031
30
0
10
-57.768376033647435
20
97.379407965520741
30
0
10
-57.467899668454677
20
98.377010869165332
30
0
10
-56.998167149815771
20
99.238633280630197
30
0
10
-56.331070324665511
20
99.742483700250972
30
0
10
-55.671932544859203
20
100.06384755482962
30
0
10
-55.057222898368245
20
100.25716725915977
30
0
10
-54.463380457021557
20
100.34236310148849
30
0
10
-53.834096348414079
20
100.30754432621737
30
0
10
-53.148018701423688
20
100.14619653990295
30
0
10
-52.427010482864162
20
99.862837512320453
30
0
10
-51.713066491133802
20
99.469702346525267
30
0
10
-51.054301822730764
20
98.985148461536113
30
0
10
-50.485706913276417
20
98.43170013886413
30
0
10
-50.016821891420442
20
97.833400920618146
30
0
10
-49.642753346582602
20
97.209228876299889
30
0
10
-49.35213203412701
20
96.566652161364829
30
0
10
-49.136070979162056
20
95.896046275527169
30
0
10
-48.997170169828202
20
95.162332880899243
30
0
10
-48.951640379349435
20
94.318882472556595
30
0
10
-49.027834058534566
20
93.323564893221317
30
0
10
-49.270236233226626
20
92.157264339363536
30
0
10
-49.731706578494382
20
90.834113503547073
30
0
10
-50.495478206876435
20
89.434011977485937
30
0
10
-51.546624879178736
20
88.029410788424912
30
0
10
-52.80316055377925
20
86.683317423602375
30
0
10
-54.142071315513718
20
85.450134815655389
30
0
10
-55.426301127979613
20
84.374624185411392
30
0
10
-56.530959252524731
20
83.491713866457715
30
0
10
-57.370764998128948
20
82.825861448126034
30
0
10
-57.924924826191848
20
82.390737580466578
30
0
10
-58.26815378867888
20
82.188401704513524
30
0
10
-58.585568318267001
20
82.209625113912992
30
0
10
-59.080474895160862
20
82.440796600878087
30
0
10
-59.872174612450976
20
82.87202902279526
30
0
10
-60.962170524682584
20
83.498810058761549
30
0
10
-62.27820995280765
20
84.316296226981365
30
0
10
-63.696547933636026
20
85.315902370784698
30
0
10
-65.07430365399766
20
86.480268782435928
30
0
10
-66.274488468963554
20
87.780468062361109
30
0
10
-67.201050458908966
20
89.16860912165653
30
0
10
-67.813570031959671
20
90.580879771668663
30
0
10
-68.191535412403056
20
91.914485526339888
30
0
10
-68.392840421429682
20
93.116163558128235
30
0
10
-68.449517940775323
20
94.173496759341532
30
0
10
-68.379796415876498
20
95.100458725723655
30
0
10
-68.192243516165604
20
95.925932308966736
30
0
10
-67.89294647346648
20
96.681588739390989
30
0
10
-67.492336936674477
20
97.388510667170593
30
0
10
-67.009089309390916
20
98.049319178769082
30
0
10
-66.46475770562391
20
98.655083276537965
30
0
10
-65.880020881439421
20
99.18953594993576
30
0
10
-65.270762179043615
20
99.634010530178358
30
0
10
-64.643026921921802
20
99.972903603937169
30
0
10
-63.994397514250792
20
100.19469711777484
30
0
10
-63.319566766014297
20
100.28991956262742
30
0
10
-62.61384730456421
20
100.25066341482608
30
0
10
-61.879194970377696
20
100.06807806337407
30
0
10
-61.125602705991618
20
99.735807466554974
30
0
10
-60.384951931795371
20
99.254779076893143
30
0
10
-59.697242503612756
20
98.642680400856051
30
0
10
-59.161061641751772
20
97.930407192867946
30
0
10
-58.826000311443593
20
97.192475464366211
30
0
10
-58.627571499779748
20
96.718550667759359
30
0
10
-58.45983963053888
20
96.504420710862576
30
0
10
-58.345400421936844
20
96.454960184931309
30
0
10
-58.288358473862381
20
96.455345398858441
30
0
0
LINE
5
101
100
AcDbEntity
8
0
100
AcDbLine
10
-67.468588803757626
20
69.688829206416983
30
0
11
-67.468588803757626
21
-13.927817508893821
31
0
0
LINE
5
102
100
AcDbEntity
8
0
100
AcDbLine
10
-49.783638662106782
20
-14.369404005487514
30
0
11
-49.783638662106782
21
18.528789990742681
31
0
0
LINE
5
103
100
AcDbEntity
8
0
100
AcDbLine
10
-49.342052165513088
20
69.532030347314304
30
0
11
-49.342052165513088
21
44.361600041473764
31
0
0
LINE
5
104
100
AcDbEntity
8
0
100
AcDbLine
10
11.82401712016523
20
70.15958113117631
30
0
11
11.82401712016523
21
44.326771080445212
31
0
0
LINE
5
105
100
AcDbEntity
8
0
100
AcDbLine
10
29.708270232209827
20
8.5582648563560149
30
0
11
29.708270232209827
21
70.15958113117631
31
0
0
LINE
5
106
100
AcDbEntity
8
0
100
AcDbLine
10
48.917282834035504
20
70.15958113117631
30
0
11
48.917282834035504
21
8.5582648563560149
31
0
0
LINE
5
107
100
AcDbEntity
8
0
100
AcDbLine
10
66.580742697783265
20
70.15958113117631
30
0
11
66.580742697783265
21
8.5582648563560149
31
0
0
ARC
5
108
100
AcDbEntity
8
0
100
AcDbCircle
10
-35.036662889720695
20
37.822312096576837
30
0
40
15.729159200613056
100
AcDbArc
50
0.36956655632797675
51
155.43388410531787
0
ARC
5
109
100
AcDbEntity
8
0
100
AcDbCircle
10
-3.0565813664834796
20
37.793169046439601
30
0
40
16.25177426804883
100
AcDbArc
50
23.704764744315753
51
179.53957118282349
0
ARC
5
110
100
AcDbEntity
8
0
100
AcDbCircle
10
38.618854895618298
20
12.706023735075359
30
0
40
27.666977893584111
100
AcDbArc
50
165.57561188277722
51
254.5615537609477
0
ARC
5
111
100
AcDbEntity
8
0
100
AcDbCircle
10
42.533468761641018
20
9.4095875553865973
30
0
40
24.062338500190524
100
AcDbArc
50
283.75528508632277
51
357.97245893521512
0
ARC
5
112
100
AcDbEntity
8
0
100
AcDbCircle
10
-44.016070189856968
20
42.543409657133552
30
0
40
60.370609676515414
100
AcDbArc
50
293.92990162957193
51
337.66154547590668
0
ARC
5
113
100
AcDbEntity
8
0
100
AcDbCircle
10
18.503575508712959
20
54.550173629670908
30
0
40
77.205464174980847
100
AcDbArc
50
207.8115668969173
51
240.48771226847757
0
LINE
5
114
100
AcDbEntity
8
0
100
AcDbLine
10
-93.273569069133913
20
1.0512944142632108
30
0
11
-70.311071246261832
21
1.0512944142632108
31
0
0
LINE
5
115
100
AcDbEntity
8
0
100
AcDbLine
10
-65.012033287137498
20
-13.962646469922371
30
0
11
-52.426818134217243
21
-13.962646469922371
31
0
0
LINE
5
116
100
AcDbEntity
8
0
100
AcDbLine
10
-65.453619783731199
20
53.600087508912779
30
0
11
-52.426818134217243
21
53.600087508912779
31
0
0
LINE
5
117
100
AcDbEntity
8
0
100
AcDbLine
10
-65.453619783731199
20
69.497201386285766
30
0
11
-52.426818134217243
21
69.497201386285766
31
0
0
LINE
5
118
100
AcDbEntity
8
0
100
AcDbLine
10
27.721130997538225
20
53.585378431445008
30
0
11
14.031949603133697
21
53.585378431445008
31
0
0
LINE
5
119
100
AcDbEntity
8
0
100
AcDbLine
10
50.852508707324233
20
70.15958113117631
30
0
11
64.541690101728761
21
70.15958113117631
31
0
0
LINE
5
120
100
AcDbEntity
8
0
100
AcDbLine
10
63.879310356838204
20
53.585378431445008
30
0
11
50.852508707324233
21
53.585378431445008
31
0
0
LINE
5
121
100
AcDbEntity
8
0
100
AcDbLine
10
13.98003624175081
20
70.15958113117631
30
0
11
27.721130997538225
21
70.15958113117631
31
0
0
LINE
5
122
100
AcDbEntity
8
0
100
AcDbLine
10
68.295175322775151
20
1.0512944142632108
30
0
11
92.80322588372519
21
1.0512944142632108
31
0
0
SPLINE
5
123
100
AcDbEntity
8
0
100
AcDbSpline
70
1064
71
5
72
91
73
85
74
0
42
0.000000001
43
0.0000000001
44
0.0000000001
40
0
40
0
40
0
40
0
40
0
40
0
40
0.012500000000000001
40
0.025000000000000001
40
0.037500000000000006
40
0.050000000000000003
40
0.0625
40
0.074999999999999997
40
0.087499999999999994
40
0.099999999999999992
40
0.11249999999999999
40
0.12499999999999999
40
0.13749999999999998
40
0.14999999999999999
40
0.16250000000000001
40
0.17500000000000002
40
0.18750000000000003
40
0.20000000000000004
40
0.21250000000000005
40
0.22500000000000006
40
0.23750000000000007
40
0.25000000000000006
40
0.26250000000000007
40
0.27500000000000008
40
0.28750000000000009
40
0.3000000000000001
40
0.31250000000000011
40
0.32500000000000012
40
0.33750000000000013
40
0.35000000000000014
40
0.36250000000000016
40
0.37500000000000017
40
0.38750000000000018
40
0.40000000000000019
40
0.4125000000000002
40
0.42500000000000021
40
0.43750000000000022
40
0.45000000000000023
40
0.46250000000000024
40
0.47500000000000026
40
0.48750000000000027
40
0.50000000000000022
40
0.51250000000000018
40
0.52500000000000013
40
0.53750000000000009
40
0.55000000000000004
40
0.5625
40
0.57499999999999996
40
0.58749999999999991
40
0.59999999999999987
40
0.61249999999999982
40
0.62499999999999978
40
0.63749999999999973
40
0.64999999999999969
40
0.66249999999999964
40
0.6749999999999996
40
0.68749999999999956
40
0.69999999999999951
40
0.71249999999999947
40
0.72499999999999942
40
0.73749999999999938
40
0.74999999999999933
40
0.76249999999999929
40
0.77499999999999925
40
0.7874999999999992
40
0.79999999999999916
40
0.81249999999999911
40
0.82499999999999907
40
0.83749999999999902
40
0.84999999999999898
40
0.86249999999999893
40
0.87499999999999889
40
0.88749999999999885
40
0.8999999999999988
40
0.91249999999999876
40
0.92499999999999871
40
0.93749999999999867
40
0.94999999999999862
40
0.96249999999999858
40
0.97499999999999853
40
0.98749999999999849
40
1
40
1
40
1
40
1
40
1
40
1
10
-20.692655686141933
20
-0.62758768619283867
30
0
10
-20.592126063076741
20
-0.70435576198807603
30
0
10
-20.400146372296554
20
-0.8458567052888567
30
0
10
-20.085883748328428
20
-1.0405550237582586
30
0
10
-19.390728008978947
20
-1.2389576396389443
30
0
10
-17.90160828558896
20
-0.56949636457189878
30
0
10
-16.094304992300817
20
0.7359864177740032
30
0
10
-14.21895815222593
20
2.3020222128199346
30
0
10
-12.345799465227234
20
4.0162146621656447
30
0
10
-10.48337327052792
20
5.8186191692094367
30
0
10
-8.589071600333174
20
7.7307362359958587
30
0
10
-6.6311157786340456
20
9.777268250125573
30
0
10
-4.6163770973140466
20
11.964373018760712
30
0
10
-2.6608162753852276
20
14.209640727753607
30
0
10
-0.97684832924496123
20
16.348397509856895
30
0
10
0.36806501793378915
20
18.339014823857745
30
0
10
1.3597104217250719
20
20.181931234940585
30
0
10
2.0424887839740893
20
21.922021547002203
30
0
10
2.4843959848566226
20
23.616078085819254
30
0
10
2.7606829861960764
20
25.316912059855497
30
0
10
2.9262442186117559
20
27.046301843699091
30
0
10
3.0040161902038856
20
28.78643335595212
30
0
10
2.9946450465787162
20
30.49745833120987
30
0
10
2.8816159122829941
20
32.129994401786242
30
0
10
2.6382125531620915
20
33.638367122308715
30
0
10
2.2335703637390085
20
34.996590166154611
30
0
10
1.6396670290783353
20
36.201910468179854
30
0
10
0.84010515122952456
20
37.260268731530971
30
0
10
-0.16299998649100639
20
38.177418962981719
30
0
10
-1.3379754651863864
20
38.945225480684329
30
0
10
-2.6266668846030443
20
39.539197239581135
30
0
10
-3.9685835989683609
20
39.93059611083288
30
0
10
-5.3172999015767122
20
40.094133556418569
30
0
10
-6.6657235226255063
20
40.019420613091647
30
0
10
-8.0478574020621458
20
39.713822471776027
30
0
10
-9.5020008414855699
20
39.189755513210763
30
0
10
-11.043939322257664
20
38.458449846677489
30
0
10
-12.633484498340369
20
37.514829886272672
30
0
10
-14.150143922259344
20
36.340768270256341
30
0
10
-15.443632390990434
20
34.917683029275601
30
0
10
-16.411504024971762
20
33.327470212996381
30
0
10
-17.0100694040086
20
31.646156136329232
30
0
10
-17.422370018100978
20
30.322228477594098
30
0
10
-17.845417720344582
20
29.374629498382138
30
0
10
-18.257936412405979
20
28.088229547572645
30
0
10
-18.43105770868274
20
25.725214846333337
30
0
10
-18.798783265172364
20
24.340680313105739
30
0
10
-18.965848330997773
20
25.773228358856848
30
0
10
-18.915560710578461
20
26.449191811648006
30
0
10
-19.557694571242795
20
28.356190239518444
30
0
10
-20.534058578002096
20
30.457997073538657
30
0
10
-21.624253421631412
20
32.69856175901927
30
0
10
-22.472540632635241
20
34.540083834387367
30
0
10
-23.300874124784198
20
36.011166058980876
30
0
10
-24.444350152247974
20
37.22263445509234
30
0
10
-25.92387574062343
20
38.194701024733376
30
0
10
-27.683743872234313
20
38.930177553492854
30
0
10
-29.578907179556989
20
39.403308808331353
30
0
10
-31.46783058556958
20
39.583906132606707
30
0
10
-33.26144352239826
20
39.446519507251125
30
0
10
-34.915952462902695
20
38.9755731510865
30
0
10
-36.415303124253676
20
38.167406630479334
30
0
10
-37.757973375473611
20
37.033671979118324
30
0
10
-38.942023022486026
20
35.604101350165891
30
0
10
-39.950639549712974
20
33.929735902831275
30
0
10
-40.757461656290445
20
32.07386780694938
30
0
10
-41.332206449960779
20
30.103027772435141
30
0
10
-41.64643394776558
20
28.077629378355404
30
0
10
-41.67865809600098
20
26.04350475411616
30
0
10
-41.421181417890068
20
24.021238390085902
30
0
10
-40.881570386746979
20
22.002354240648366
30
0
10
-40.072877348056011
20
19.96130945556687
30
0
10
-39.004967835563619
20
17.864236737629831
30
0
10
-37.677848529435714
20
15.679109216569287
30
0
10
-36.068537270716362
20
13.384974910768516
30
0
10
-34.133984276628148
20
10.982408654350541
30
0
10
-31.76882923971327
20
8.500153314577366
30
0
10
-29.119244287725444
20
6.0612184578577191
30
0
10
-26.455767257338159
20
3.8311689075285993
30
0
10
-24.090249518558409
20
1.9686258443896958
30
0
10
-22.293516367757334
20
0.60561268272114177
30
0
10
-21.399302732807751
20
-0.082233057440743246
30
0
10
-21.003324110687736
20
-0.38524825051741157
30
0
10
-20.793185309207139
20
-0.55081961039759197
30
0
10
-20.692655686141933
20
-0.62758768619283867
30
0
0
LINE
5
124
100
AcDbEntity
8
0
100
AcDbLine
10
32.677181928565631
20
-13.962646469922371
30
0
11
47.095259514110204
21
-13.962646469922371
31
0
0
ARC
5
125
100
AcDbEntity
8
0
100
AcDbCircle
10
39.312776533122658
20
8.5582648563560166
30
0
40
9.6045063009128384
100
AcDbArc
50
180
51
360
0
LWPOLYLINE
5
126
100
AcDbEntity
8
0
100
AcDbPolyline
90
4
70
1
43
0.0
10
-87.5
20
-125
10
87.5
20
-125
10
87.5
20
125
10
-87.5
20
125
0
LWPOLYLINE
5
127
100
AcDbEntity
8
0
100
AcDbPolyline
90
4
70
1
43
0.0
10
-105
20
-148.49999999999997
10
105
20
-148.49999999999997
10
105
20
148.49999999999997
10
-105
20
148.49999999999997
0
ENDSEC
0
SECTION
2
OBJECTS
0
DICTIONARY
5
C
100
AcDbDictionary
3
ACAD_GROUP
350
D
3
ACAD_MLINESTYLE
350
17
0
DICTIONARY
5
D
100
AcDbDictionary
0
DICTIONARY
5
1A
330
C
100
AcDbDictionary
0
DICTIONARY
5
17
100
AcDbDictionary
0
ENDSEC
0
EOF
